ISO-10303-21;
HEADER;
/* Generated by software containing ST-Developer
 * from STEP Tools, Inc. (www.steptools.com) 
 */

FILE_DESCRIPTION(
/* description */ (''),
/* implementation_level */ '2;1');

FILE_NAME(
/* name */ 'TK Adapter orb.step',
/* time_stamp */ '2026-02-14T17:14:03-08:00',
/* author */ (''),
/* organization */ (''),
/* preprocessor_version */ 'ST-DEVELOPER v20.1',
/* originating_system */ 'Autodesk Translation Framework v14.24.0.0',
/* authorisation */ '');

FILE_SCHEMA (('AUTOMOTIVE_DESIGN { 1 0 10303 214 3 1 1 }'));
ENDSEC;

DATA;
#10=MECHANICAL_DESIGN_GEOMETRIC_PRESENTATION_REPRESENTATION('',(#17),#422);
#11=ITEM_DEFINED_TRANSFORMATION($,$,#241,#262);
#12=(
REPRESENTATION_RELATIONSHIP($,$,#433,#432)
REPRESENTATION_RELATIONSHIP_WITH_TRANSFORMATION(#11)
SHAPE_REPRESENTATION_RELATIONSHIP()
);
#13=CONTEXT_DEPENDENT_SHAPE_REPRESENTATION(#12,#431);
#14=NEXT_ASSEMBLY_USAGE_OCCURRENCE('Component1:1','Component1:1',
'Component1:1',#435,#436,'Component1:1');
#15=SHAPE_REPRESENTATION_RELATIONSHIP('SRR','None',#433,#16);
#16=ADVANCED_BREP_SHAPE_REPRESENTATION('',(#18),#421);
#17=STYLED_ITEM('',(#447),#18);
#18=MANIFOLD_SOLID_BREP('Body1',#227);
#19=FACE_BOUND('',#52,.T.);
#20=FACE_BOUND('',#62,.T.);
#21=FACE_BOUND('',#64,.T.);
#22=(
BOUNDED_SURFACE()
B_SPLINE_SURFACE(2,2,((#340,#341,#342,#343,#344,#345,#346,#347,#348),(#349,
#350,#351,#352,#353,#354,#355,#356,#357),(#358,#359,#360,#361,#362,#363,
#364,#365,#366)),.UNSPECIFIED.,.F.,.T.,.F.)
B_SPLINE_SURFACE_WITH_KNOTS((3,3),(3,2,2,2,3),(0.143347568905365,1.5707963267949),
(-3.14159265358979,-1.5707963267949,0.,1.5707963267949,3.14159265358979),
 .UNSPECIFIED.)
GEOMETRIC_REPRESENTATION_ITEM()
RATIONAL_B_SPLINE_SURFACE(((1.,0.707106781186548,1.,0.707106781186548,1.,
0.707106781186548,1.,0.707106781186548,1.),(0.755928946018455,0.534522483824849,
0.755928946018455,0.534522483824849,0.755928946018455,0.534522483824849,
0.755928946018455,0.534522483824849,0.755928946018455),(1.,0.707106781186548,
1.,0.707106781186548,1.,0.707106781186548,1.,0.707106781186548,1.)))
REPRESENTATION_ITEM('')
SURFACE()
);
#23=PLANE('',#245);
#24=PLANE('',#249);
#25=PLANE('',#250);
#26=PLANE('',#252);
#27=PLANE('',#253);
#28=PLANE('',#254);
#29=PLANE('',#255);
#30=PLANE('',#256);
#31=PLANE('',#257);
#32=PLANE('',#260);
#33=PLANE('',#261);
#34=FACE_OUTER_BOUND('',#48,.T.);
#35=FACE_OUTER_BOUND('',#49,.T.);
#36=FACE_OUTER_BOUND('',#50,.T.);
#37=FACE_OUTER_BOUND('',#51,.T.);
#38=FACE_OUTER_BOUND('',#53,.T.);
#39=FACE_OUTER_BOUND('',#54,.T.);
#40=FACE_OUTER_BOUND('',#55,.T.);
#41=FACE_OUTER_BOUND('',#56,.T.);
#42=FACE_OUTER_BOUND('',#57,.T.);
#43=FACE_OUTER_BOUND('',#58,.T.);
#44=FACE_OUTER_BOUND('',#59,.T.);
#45=FACE_OUTER_BOUND('',#60,.T.);
#46=FACE_OUTER_BOUND('',#61,.T.);
#47=FACE_OUTER_BOUND('',#63,.T.);
#48=EDGE_LOOP('',(#157,#158,#159,#160));
#49=EDGE_LOOP('',(#161));
#50=EDGE_LOOP('',(#162,#163,#164,#165));
#51=EDGE_LOOP('',(#166,#167,#168,#169,#170,#171));
#52=EDGE_LOOP('',(#172));
#53=EDGE_LOOP('',(#173));
#54=EDGE_LOOP('',(#174,#175,#176,#177));
#55=EDGE_LOOP('',(#178,#179,#180,#181));
#56=EDGE_LOOP('',(#182,#183,#184,#185));
#57=EDGE_LOOP('',(#186,#187,#188,#189));
#58=EDGE_LOOP('',(#190,#191,#192,#193));
#59=EDGE_LOOP('',(#194,#195,#196,#197));
#60=EDGE_LOOP('',(#198,#199,#200,#201));
#61=EDGE_LOOP('',(#202,#203,#204,#205,#206,#207));
#62=EDGE_LOOP('',(#208));
#63=EDGE_LOOP('',(#209));
#64=EDGE_LOOP('',(#210));
#65=LINE('',#335,#85);
#66=LINE('',#373,#86);
#67=LINE('',#375,#87);
#68=LINE('',#377,#88);
#69=LINE('',#379,#89);
#70=LINE('',#381,#90);
#71=LINE('',#382,#91);
#72=LINE('',#388,#92);
#73=LINE('',#390,#93);
#74=LINE('',#391,#94);
#75=LINE('',#394,#95);
#76=LINE('',#395,#96);
#77=LINE('',#398,#97);
#78=LINE('',#399,#98);
#79=LINE('',#402,#99);
#80=LINE('',#403,#100);
#81=LINE('',#406,#101);
#82=LINE('',#407,#102);
#83=LINE('',#409,#103);
#84=LINE('',#413,#104);
#85=VECTOR('',#271,3.8);
#86=VECTOR('',#284,10.);
#87=VECTOR('',#285,10.);
#88=VECTOR('',#286,10.);
#89=VECTOR('',#287,10.);
#90=VECTOR('',#288,10.);
#91=VECTOR('',#289,10.);
#92=VECTOR('',#296,10.);
#93=VECTOR('',#297,10.);
#94=VECTOR('',#298,10.);
#95=VECTOR('',#301,10.);
#96=VECTOR('',#302,10.);
#97=VECTOR('',#305,10.);
#98=VECTOR('',#306,10.);
#99=VECTOR('',#309,10.);
#100=VECTOR('',#310,10.);
#101=VECTOR('',#313,10.);
#102=VECTOR('',#314,10.);
#103=VECTOR('',#317,10.);
#104=VECTOR('',#322,1.6);
#105=CIRCLE('',#243,3.8);
#106=CIRCLE('',#244,3.8);
#107=CIRCLE('',#246,0.515301494039665);
#108=CIRCLE('',#247,3.5);
#109=CIRCLE('',#248,3.97940310917742);
#110=CIRCLE('',#251,1.2645);
#111=CIRCLE('',#259,1.2645);
#112=VERTEX_POINT('',#332);
#113=VERTEX_POINT('',#334);
#114=VERTEX_POINT('',#338);
#115=VERTEX_POINT('',#367);
#116=VERTEX_POINT('',#371);
#117=VERTEX_POINT('',#372);
#118=VERTEX_POINT('',#374);
#119=VERTEX_POINT('',#376);
#120=VERTEX_POINT('',#378);
#121=VERTEX_POINT('',#380);
#122=VERTEX_POINT('',#384);
#123=VERTEX_POINT('',#387);
#124=VERTEX_POINT('',#389);
#125=VERTEX_POINT('',#393);
#126=VERTEX_POINT('',#397);
#127=VERTEX_POINT('',#401);
#128=VERTEX_POINT('',#405);
#129=VERTEX_POINT('',#411);
#130=EDGE_CURVE('',#112,#112,#105,.T.);
#131=EDGE_CURVE('',#112,#113,#65,.T.);
#132=EDGE_CURVE('',#113,#113,#106,.T.);
#133=EDGE_CURVE('',#114,#114,#107,.T.);
#134=EDGE_CURVE('',#114,#115,#108,.T.);
#135=EDGE_CURVE('',#115,#115,#109,.T.);
#136=EDGE_CURVE('',#116,#117,#66,.T.);
#137=EDGE_CURVE('',#117,#118,#67,.T.);
#138=EDGE_CURVE('',#118,#119,#68,.T.);
#139=EDGE_CURVE('',#119,#120,#69,.T.);
#140=EDGE_CURVE('',#120,#121,#70,.T.);
#141=EDGE_CURVE('',#121,#116,#71,.T.);
#142=EDGE_CURVE('',#122,#122,#110,.F.);
#143=EDGE_CURVE('',#123,#118,#72,.T.);
#144=EDGE_CURVE('',#124,#123,#73,.T.);
#145=EDGE_CURVE('',#119,#124,#74,.T.);
#146=EDGE_CURVE('',#125,#124,#75,.T.);
#147=EDGE_CURVE('',#120,#125,#76,.T.);
#148=EDGE_CURVE('',#126,#125,#77,.T.);
#149=EDGE_CURVE('',#121,#126,#78,.T.);
#150=EDGE_CURVE('',#127,#126,#79,.T.);
#151=EDGE_CURVE('',#116,#127,#80,.T.);
#152=EDGE_CURVE('',#128,#127,#81,.T.);
#153=EDGE_CURVE('',#117,#128,#82,.T.);
#154=EDGE_CURVE('',#123,#128,#83,.T.);
#155=EDGE_CURVE('',#129,#129,#111,.T.);
#156=EDGE_CURVE('',#129,#122,#84,.T.);
#157=ORIENTED_EDGE('',*,*,#130,.T.);
#158=ORIENTED_EDGE('',*,*,#131,.T.);
#159=ORIENTED_EDGE('',*,*,#132,.F.);
#160=ORIENTED_EDGE('',*,*,#131,.F.);
#161=ORIENTED_EDGE('',*,*,#133,.F.);
#162=ORIENTED_EDGE('',*,*,#133,.T.);
#163=ORIENTED_EDGE('',*,*,#134,.T.);
#164=ORIENTED_EDGE('',*,*,#135,.F.);
#165=ORIENTED_EDGE('',*,*,#134,.F.);
#166=ORIENTED_EDGE('',*,*,#136,.T.);
#167=ORIENTED_EDGE('',*,*,#137,.T.);
#168=ORIENTED_EDGE('',*,*,#138,.T.);
#169=ORIENTED_EDGE('',*,*,#139,.T.);
#170=ORIENTED_EDGE('',*,*,#140,.T.);
#171=ORIENTED_EDGE('',*,*,#141,.T.);
#172=ORIENTED_EDGE('',*,*,#135,.T.);
#173=ORIENTED_EDGE('',*,*,#142,.F.);
#174=ORIENTED_EDGE('',*,*,#143,.F.);
#175=ORIENTED_EDGE('',*,*,#144,.F.);
#176=ORIENTED_EDGE('',*,*,#145,.F.);
#177=ORIENTED_EDGE('',*,*,#138,.F.);
#178=ORIENTED_EDGE('',*,*,#145,.T.);
#179=ORIENTED_EDGE('',*,*,#146,.F.);
#180=ORIENTED_EDGE('',*,*,#147,.F.);
#181=ORIENTED_EDGE('',*,*,#139,.F.);
#182=ORIENTED_EDGE('',*,*,#147,.T.);
#183=ORIENTED_EDGE('',*,*,#148,.F.);
#184=ORIENTED_EDGE('',*,*,#149,.F.);
#185=ORIENTED_EDGE('',*,*,#140,.F.);
#186=ORIENTED_EDGE('',*,*,#149,.T.);
#187=ORIENTED_EDGE('',*,*,#150,.F.);
#188=ORIENTED_EDGE('',*,*,#151,.F.);
#189=ORIENTED_EDGE('',*,*,#141,.F.);
#190=ORIENTED_EDGE('',*,*,#151,.T.);
#191=ORIENTED_EDGE('',*,*,#152,.F.);
#192=ORIENTED_EDGE('',*,*,#153,.F.);
#193=ORIENTED_EDGE('',*,*,#136,.F.);
#194=ORIENTED_EDGE('',*,*,#153,.T.);
#195=ORIENTED_EDGE('',*,*,#154,.F.);
#196=ORIENTED_EDGE('',*,*,#143,.T.);
#197=ORIENTED_EDGE('',*,*,#137,.F.);
#198=ORIENTED_EDGE('',*,*,#155,.T.);
#199=ORIENTED_EDGE('',*,*,#156,.T.);
#200=ORIENTED_EDGE('',*,*,#142,.T.);
#201=ORIENTED_EDGE('',*,*,#156,.F.);
#202=ORIENTED_EDGE('',*,*,#154,.T.);
#203=ORIENTED_EDGE('',*,*,#152,.T.);
#204=ORIENTED_EDGE('',*,*,#150,.T.);
#205=ORIENTED_EDGE('',*,*,#148,.T.);
#206=ORIENTED_EDGE('',*,*,#146,.T.);
#207=ORIENTED_EDGE('',*,*,#144,.T.);
#208=ORIENTED_EDGE('',*,*,#132,.T.);
#209=ORIENTED_EDGE('',*,*,#130,.F.);
#210=ORIENTED_EDGE('',*,*,#155,.F.);
#211=CYLINDRICAL_SURFACE('',#242,3.8);
#212=CYLINDRICAL_SURFACE('',#258,1.2645);
#213=ADVANCED_FACE('',(#34),#211,.T.);
#214=ADVANCED_FACE('',(#35),#23,.T.);
#215=ADVANCED_FACE('',(#36),#22,.T.);
#216=ADVANCED_FACE('',(#37,#19),#24,.T.);
#217=ADVANCED_FACE('',(#38),#25,.T.);
#218=ADVANCED_FACE('',(#39),#26,.T.);
#219=ADVANCED_FACE('',(#40),#27,.T.);
#220=ADVANCED_FACE('',(#41),#28,.T.);
#221=ADVANCED_FACE('',(#42),#29,.T.);
#222=ADVANCED_FACE('',(#43),#30,.T.);
#223=ADVANCED_FACE('',(#44),#31,.T.);
#224=ADVANCED_FACE('',(#45),#212,.F.);
#225=ADVANCED_FACE('',(#46,#20),#32,.T.);
#226=ADVANCED_FACE('',(#47,#21),#33,.T.);
#227=CLOSED_SHELL('',(#213,#214,#215,#216,#217,#218,#219,#220,#221,#222,
#223,#224,#225,#226));
#228=DERIVED_UNIT_ELEMENT(#230,1.);
#229=DERIVED_UNIT_ELEMENT(#424,-3.);
#230=(
MASS_UNIT()
NAMED_UNIT(*)
SI_UNIT(.KILO.,.GRAM.)
);
#231=DERIVED_UNIT((#228,#229));
#232=MEASURE_REPRESENTATION_ITEM('density measure',
POSITIVE_RATIO_MEASURE(7850.),#231);
#233=PROPERTY_DEFINITION_REPRESENTATION(#238,#235);
#234=PROPERTY_DEFINITION_REPRESENTATION(#239,#236);
#235=REPRESENTATION('material name',(#237),#421);
#236=REPRESENTATION('density',(#232),#421);
#237=DESCRIPTIVE_REPRESENTATION_ITEM('Steel','Steel');
#238=PROPERTY_DEFINITION('material property','material name',#436);
#239=PROPERTY_DEFINITION('material property','density of part',#436);
#240=AXIS2_PLACEMENT_3D('',#329,#263,#264);
#241=AXIS2_PLACEMENT_3D('',#330,#265,#266);
#242=AXIS2_PLACEMENT_3D('',#331,#267,#268);
#243=AXIS2_PLACEMENT_3D('',#333,#269,#270);
#244=AXIS2_PLACEMENT_3D('',#336,#272,#273);
#245=AXIS2_PLACEMENT_3D('',#337,#274,#275);
#246=AXIS2_PLACEMENT_3D('',#339,#276,#277);
#247=AXIS2_PLACEMENT_3D('',#368,#278,#279);
#248=AXIS2_PLACEMENT_3D('',#369,#280,#281);
#249=AXIS2_PLACEMENT_3D('',#370,#282,#283);
#250=AXIS2_PLACEMENT_3D('',#383,#290,#291);
#251=AXIS2_PLACEMENT_3D('',#385,#292,#293);
#252=AXIS2_PLACEMENT_3D('',#386,#294,#295);
#253=AXIS2_PLACEMENT_3D('',#392,#299,#300);
#254=AXIS2_PLACEMENT_3D('',#396,#303,#304);
#255=AXIS2_PLACEMENT_3D('',#400,#307,#308);
#256=AXIS2_PLACEMENT_3D('',#404,#311,#312);
#257=AXIS2_PLACEMENT_3D('',#408,#315,#316);
#258=AXIS2_PLACEMENT_3D('',#410,#318,#319);
#259=AXIS2_PLACEMENT_3D('',#412,#320,#321);
#260=AXIS2_PLACEMENT_3D('',#414,#323,#324);
#261=AXIS2_PLACEMENT_3D('',#415,#325,#326);
#262=AXIS2_PLACEMENT_3D('',#416,#327,#328);
#263=DIRECTION('axis',(0.,0.,1.));
#264=DIRECTION('refdir',(1.,0.,0.));
#265=DIRECTION('axis',(0.,0.,1.));
#266=DIRECTION('refdir',(1.,0.,0.));
#267=DIRECTION('center_axis',(0.,0.,1.));
#268=DIRECTION('ref_axis',(-1.,0.,0.));
#269=DIRECTION('center_axis',(0.,0.,-1.));
#270=DIRECTION('ref_axis',(-1.,0.,0.));
#271=DIRECTION('',(0.,0.,-1.));
#272=DIRECTION('center_axis',(0.,0.,-1.));
#273=DIRECTION('ref_axis',(-1.,0.,0.));
#274=DIRECTION('center_axis',(0.,0.,-1.));
#275=DIRECTION('ref_axis',(1.,0.,0.));
#276=DIRECTION('center_axis',(0.,0.,1.));
#277=DIRECTION('ref_axis',(-1.,0.,0.));
#278=DIRECTION('center_axis',(1.22464679914735E-16,-1.,0.));
#279=DIRECTION('ref_axis',(1.,1.22464679914735E-16,0.));
#280=DIRECTION('center_axis',(0.,0.,1.));
#281=DIRECTION('ref_axis',(1.,0.,0.));
#282=DIRECTION('center_axis',(0.,0.,-1.));
#283=DIRECTION('ref_axis',(1.,0.,0.));
#284=DIRECTION('',(-0.856251703238471,0.516558825983272,0.));
#285=DIRECTION('',(0.0192272142313437,0.999815140029847,0.));
#286=DIRECTION('',(0.875478917469815,0.483256314046574,0.));
#287=DIRECTION('',(0.856251703238471,-0.516558825983273,0.));
#288=DIRECTION('',(-0.0192272142313437,-0.999815140029847,0.));
#289=DIRECTION('',(-0.875478917469815,-0.483256314046574,0.));
#290=DIRECTION('center_axis',(0.,0.,1.));
#291=DIRECTION('ref_axis',(0.866025403784438,0.500000000000001,0.));
#292=DIRECTION('center_axis',(0.,0.,1.));
#293=DIRECTION('ref_axis',(1.,0.,0.));
#294=DIRECTION('center_axis',(-0.483256314046574,0.875478917469815,0.));
#295=DIRECTION('ref_axis',(-0.875478917469815,-0.483256314046574,0.));
#296=DIRECTION('',(0.,0.,-1.));
#297=DIRECTION('',(-0.875478917469815,-0.483256314046574,0.));
#298=DIRECTION('',(0.,0.,1.));
#299=DIRECTION('center_axis',(0.516558825983273,0.856251703238471,0.));
#300=DIRECTION('ref_axis',(-0.856251703238471,0.516558825983273,0.));
#301=DIRECTION('',(-0.856251703238471,0.516558825983273,0.));
#302=DIRECTION('',(0.,0.,1.));
#303=DIRECTION('center_axis',(0.999815140029847,-0.0192272142313437,0.));
#304=DIRECTION('ref_axis',(0.0192272142313437,0.999815140029847,0.));
#305=DIRECTION('',(0.0192272142313437,0.999815140029847,0.));
#306=DIRECTION('',(0.,0.,1.));
#307=DIRECTION('center_axis',(0.483256314046574,-0.875478917469815,0.));
#308=DIRECTION('ref_axis',(0.875478917469815,0.483256314046574,0.));
#309=DIRECTION('',(0.875478917469815,0.483256314046574,0.));
#310=DIRECTION('',(0.,0.,1.));
#311=DIRECTION('center_axis',(-0.516558825983272,-0.856251703238471,0.));
#312=DIRECTION('ref_axis',(0.856251703238472,-0.516558825983272,0.));
#313=DIRECTION('',(0.856251703238471,-0.516558825983272,0.));
#314=DIRECTION('',(0.,0.,1.));
#315=DIRECTION('center_axis',(-0.999815140029847,0.0192272142313437,0.));
#316=DIRECTION('ref_axis',(-0.0192272142313437,-0.999815140029847,0.));
#317=DIRECTION('',(-0.0192272142313437,-0.999815140029847,0.));
#318=DIRECTION('center_axis',(0.,0.,-1.));
#319=DIRECTION('ref_axis',(1.,0.,0.));
#320=DIRECTION('center_axis',(0.,0.,1.));
#321=DIRECTION('ref_axis',(1.,0.,0.));
#322=DIRECTION('',(0.,0.,-1.));
#323=DIRECTION('center_axis',(0.,0.,1.));
#324=DIRECTION('ref_axis',(1.,0.,0.));
#325=DIRECTION('center_axis',(0.,0.,1.));
#326=DIRECTION('ref_axis',(-1.,0.,0.));
#327=DIRECTION('',(0.,0.,1.));
#328=DIRECTION('',(1.,0.,0.));
#329=CARTESIAN_POINT('',(0.,0.,0.));
#330=CARTESIAN_POINT('',(0.,0.,0.));
#331=CARTESIAN_POINT('Origin',(0.,0.,2.));
#332=CARTESIAN_POINT('',(3.8,4.65365783675994E-16,5.72));
#333=CARTESIAN_POINT('Origin',(0.,0.,5.72));
#334=CARTESIAN_POINT('',(3.8,-4.65365783675994E-16,2.));
#335=CARTESIAN_POINT('',(3.8,4.65365783675994E-16,2.));
#336=CARTESIAN_POINT('Origin',(0.,0.,2.));
#337=CARTESIAN_POINT('Origin',(0.,0.,-3.55));
#338=CARTESIAN_POINT('',(0.515301494039665,6.31062325271524E-17,-3.55));
#339=CARTESIAN_POINT('Origin',(0.,0.,-3.55));
#340=CARTESIAN_POINT('Ctrl Pts',(3.97940310917742,0.,-0.55));
#341=CARTESIAN_POINT('Ctrl Pts',(3.97940310917742,3.97940310917742,-0.55));
#342=CARTESIAN_POINT('Ctrl Pts',(0.,3.97940310917742,-0.55));
#343=CARTESIAN_POINT('Ctrl Pts',(-3.97940310917742,3.97940310917742,-0.55));
#344=CARTESIAN_POINT('Ctrl Pts',(-3.97940310917742,0.,-0.55));
#345=CARTESIAN_POINT('Ctrl Pts',(-3.97940310917742,-3.97940310917742,-0.55));
#346=CARTESIAN_POINT('Ctrl Pts',(0.,-3.97940310917742,-0.55));
#347=CARTESIAN_POINT('Ctrl Pts',(3.97940310917742,-3.97940310917742,-0.55));
#348=CARTESIAN_POINT('Ctrl Pts',(3.97940310917742,0.,-0.55));
#349=CARTESIAN_POINT('Ctrl Pts',(3.5463904072852,0.,-3.55));
#350=CARTESIAN_POINT('Ctrl Pts',(3.5463904072852,3.5463904072852,-3.55));
#351=CARTESIAN_POINT('Ctrl Pts',(0.,3.5463904072852,-3.55));
#352=CARTESIAN_POINT('Ctrl Pts',(-3.5463904072852,3.5463904072852,-3.55));
#353=CARTESIAN_POINT('Ctrl Pts',(-3.5463904072852,0.,-3.55));
#354=CARTESIAN_POINT('Ctrl Pts',(-3.5463904072852,-3.5463904072852,-3.55));
#355=CARTESIAN_POINT('Ctrl Pts',(0.,-3.5463904072852,-3.55));
#356=CARTESIAN_POINT('Ctrl Pts',(3.5463904072852,-3.5463904072852,-3.55));
#357=CARTESIAN_POINT('Ctrl Pts',(3.5463904072852,0.,-3.55));
#358=CARTESIAN_POINT('Ctrl Pts',(0.515301494039665,0.,-3.55));
#359=CARTESIAN_POINT('Ctrl Pts',(0.515301494039665,0.515301494039665,-3.55));
#360=CARTESIAN_POINT('Ctrl Pts',(0.,0.515301494039665,-3.55));
#361=CARTESIAN_POINT('Ctrl Pts',(-0.515301494039665,0.515301494039665,-3.55));
#362=CARTESIAN_POINT('Ctrl Pts',(-0.515301494039665,0.,-3.55));
#363=CARTESIAN_POINT('Ctrl Pts',(-0.515301494039665,-0.515301494039665,
-3.55));
#364=CARTESIAN_POINT('Ctrl Pts',(0.,-0.515301494039665,-3.55));
#365=CARTESIAN_POINT('Ctrl Pts',(0.515301494039665,-0.515301494039665,-3.55));
#366=CARTESIAN_POINT('Ctrl Pts',(0.515301494039665,0.,-3.55));
#367=CARTESIAN_POINT('',(3.97940310917742,4.87336328017115E-16,-0.55));
#368=CARTESIAN_POINT('Origin',(0.515301494039664,6.31062325271524E-17,-0.05));
#369=CARTESIAN_POINT('Origin',(0.,0.,-0.55));
#370=CARTESIAN_POINT('Origin',(5.55111512312578E-16,0.,-0.55));
#371=CARTESIAN_POINT('',(-0.0888066984978619,-4.61794832188876,-0.55));
#372=CARTESIAN_POINT('',(-4.04366390936832,-2.23206530401901,-0.55));
#373=CARTESIAN_POINT('',(-3.0549496066507,-2.82853605848645,-0.55));
#374=CARTESIAN_POINT('',(-3.95485721087045,2.38588301786976,-0.55));
#375=CARTESIAN_POINT('',(-3.97705888549492,1.23139593739757,-0.55));
#376=CARTESIAN_POINT('',(0.0888066984978642,4.61794832188876,-0.55));
#377=CARTESIAN_POINT('',(-0.922109278844215,4.05993199588401,-0.55));
#378=CARTESIAN_POINT('',(4.04366390936832,2.23206530401901,-0.55));
#379=CARTESIAN_POINT('',(3.05494960665071,2.82853605848644,-0.55));
#380=CARTESIAN_POINT('',(3.95485721087046,-2.38588301786976,-0.55));
#381=CARTESIAN_POINT('',(3.97705888549492,-1.23139593739757,-0.55));
#382=CARTESIAN_POINT('',(0.922109278844218,-4.05993199588401,-0.55));
#383=CARTESIAN_POINT('Origin',(2.4980018054066E-15,-3.17542648054294,-1.75));
#384=CARTESIAN_POINT('',(-1.2645,-1.54856587752183E-16,-1.75));
#385=CARTESIAN_POINT('Origin',(-1.48130529635736E-16,0.,-1.75));
#386=CARTESIAN_POINT('Origin',(0.0888066984978642,4.61794832188876,0.));
#387=CARTESIAN_POINT('',(-3.95485721087045,2.38588301786976,2.));
#388=CARTESIAN_POINT('',(-3.95485721087045,2.38588301786976,0.));
#389=CARTESIAN_POINT('',(0.0888066984978642,4.61794832188876,2.));
#390=CARTESIAN_POINT('',(0.0888066984978642,4.61794832188876,2.));
#391=CARTESIAN_POINT('',(0.0888066984978642,4.61794832188876,0.));
#392=CARTESIAN_POINT('Origin',(4.04366390936832,2.23206530401901,0.));
#393=CARTESIAN_POINT('',(4.04366390936832,2.23206530401901,2.));
#394=CARTESIAN_POINT('',(4.04366390936832,2.23206530401901,2.));
#395=CARTESIAN_POINT('',(4.04366390936832,2.23206530401901,0.));
#396=CARTESIAN_POINT('Origin',(3.95485721087046,-2.38588301786976,0.));
#397=CARTESIAN_POINT('',(3.95485721087046,-2.38588301786976,2.));
#398=CARTESIAN_POINT('',(3.95485721087046,-2.38588301786976,2.));
#399=CARTESIAN_POINT('',(3.95485721087046,-2.38588301786976,0.));
#400=CARTESIAN_POINT('Origin',(-0.0888066984978619,-4.61794832188876,0.));
#401=CARTESIAN_POINT('',(-0.0888066984978619,-4.61794832188876,2.));
#402=CARTESIAN_POINT('',(-0.0888066984978619,-4.61794832188876,2.));
#403=CARTESIAN_POINT('',(-0.0888066984978619,-4.61794832188876,0.));
#404=CARTESIAN_POINT('Origin',(-4.04366390936832,-2.23206530401901,0.));
#405=CARTESIAN_POINT('',(-4.04366390936832,-2.23206530401901,2.));
#406=CARTESIAN_POINT('',(-4.04366390936832,-2.23206530401901,2.));
#407=CARTESIAN_POINT('',(-4.04366390936832,-2.23206530401901,0.));
#408=CARTESIAN_POINT('Origin',(-3.95485721087045,2.38588301786976,0.));
#409=CARTESIAN_POINT('',(-3.95485721087045,2.38588301786976,2.));
#410=CARTESIAN_POINT('Origin',(-1.48130529635736E-16,0.,2.32));
#411=CARTESIAN_POINT('',(-1.2645,1.54856587752183E-16,5.72));
#412=CARTESIAN_POINT('Origin',(-1.48130529635736E-16,0.,5.72));
#413=CARTESIAN_POINT('',(-1.2645,1.54856587752183E-16,2.32));
#414=CARTESIAN_POINT('Origin',(5.55111512312578E-16,0.,2.));
#415=CARTESIAN_POINT('Origin',(0.,0.,5.72));
#416=CARTESIAN_POINT('',(0.,0.,0.));
#417=UNCERTAINTY_MEASURE_WITH_UNIT(LENGTH_MEASURE(0.01),#423,
'DISTANCE_ACCURACY_VALUE',
'Maximum model space distance between geometric entities at asserted c
onnectivities');
#418=UNCERTAINTY_MEASURE_WITH_UNIT(LENGTH_MEASURE(0.01),#423,
'DISTANCE_ACCURACY_VALUE',
'Maximum model space distance between geometric entities at asserted c
onnectivities');
#419=UNCERTAINTY_MEASURE_WITH_UNIT(LENGTH_MEASURE(0.01),#423,
'DISTANCE_ACCURACY_VALUE',
'Maximum model space distance between geometric entities at asserted c
onnectivities');
#420=(
GEOMETRIC_REPRESENTATION_CONTEXT(3)
GLOBAL_UNCERTAINTY_ASSIGNED_CONTEXT((#417))
GLOBAL_UNIT_ASSIGNED_CONTEXT((#423,#425,#426))
REPRESENTATION_CONTEXT('','3D')
);
#421=(
GEOMETRIC_REPRESENTATION_CONTEXT(3)
GLOBAL_UNCERTAINTY_ASSIGNED_CONTEXT((#418))
GLOBAL_UNIT_ASSIGNED_CONTEXT((#423,#425,#426))
REPRESENTATION_CONTEXT('','3D')
);
#422=(
GEOMETRIC_REPRESENTATION_CONTEXT(3)
GLOBAL_UNCERTAINTY_ASSIGNED_CONTEXT((#419))
GLOBAL_UNIT_ASSIGNED_CONTEXT((#423,#425,#426))
REPRESENTATION_CONTEXT('','3D')
);
#423=(
LENGTH_UNIT()
NAMED_UNIT(*)
SI_UNIT(.MILLI.,.METRE.)
);
#424=(
LENGTH_UNIT()
NAMED_UNIT(*)
SI_UNIT($,.METRE.)
);
#425=(
NAMED_UNIT(*)
PLANE_ANGLE_UNIT()
SI_UNIT($,.RADIAN.)
);
#426=(
NAMED_UNIT(*)
SI_UNIT($,.STERADIAN.)
SOLID_ANGLE_UNIT()
);
#427=SHAPE_DEFINITION_REPRESENTATION(#429,#432);
#428=SHAPE_DEFINITION_REPRESENTATION(#430,#433);
#429=PRODUCT_DEFINITION_SHAPE('',$,#435);
#430=PRODUCT_DEFINITION_SHAPE('',$,#436);
#431=PRODUCT_DEFINITION_SHAPE($,$,#14);
#432=SHAPE_REPRESENTATION('',(#240,#262),#420);
#433=SHAPE_REPRESENTATION('',(#241),#421);
#434=PRODUCT_DEFINITION_CONTEXT('part definition',#442,'design');
#435=PRODUCT_DEFINITION('TK Adapter orb','TK Adapter orb v4',#437,#434);
#436=PRODUCT_DEFINITION('Component1','Component1',#438,#434);
#437=PRODUCT_DEFINITION_FORMATION('',$,#444);
#438=PRODUCT_DEFINITION_FORMATION('',$,#445);
#439=PRODUCT_RELATED_PRODUCT_CATEGORY('TK Adapter orb v4',
'TK Adapter orb v4',(#444));
#440=PRODUCT_RELATED_PRODUCT_CATEGORY('Component1','Component1',(#445));
#441=APPLICATION_PROTOCOL_DEFINITION('international standard',
'automotive_design',2009,#442);
#442=APPLICATION_CONTEXT(
'Core Data for Automotive Mechanical Design Process');
#443=PRODUCT_CONTEXT('part definition',#442,'mechanical');
#444=PRODUCT('TK Adapter orb','TK Adapter orb v4',$,(#443));
#445=PRODUCT('Component1','Component1',$,(#443));
#446=PRESENTATION_STYLE_ASSIGNMENT((#448));
#447=PRESENTATION_STYLE_ASSIGNMENT((#449));
#448=SURFACE_STYLE_USAGE(.BOTH.,#450);
#449=SURFACE_STYLE_USAGE(.BOTH.,#451);
#450=SURFACE_SIDE_STYLE('',(#452));
#451=SURFACE_SIDE_STYLE('',(#453));
#452=SURFACE_STYLE_FILL_AREA(#454);
#453=SURFACE_STYLE_FILL_AREA(#455);
#454=FILL_AREA_STYLE('Steel - Satin',(#456));
#455=FILL_AREA_STYLE('Aluminum - Anodized Glossy (Red)',(#457));
#456=FILL_AREA_STYLE_COLOUR('Steel - Satin',#458);
#457=FILL_AREA_STYLE_COLOUR('Aluminum - Anodized Glossy (Red)',#459);
#458=COLOUR_RGB('Steel - Satin',0.627450980392157,0.627450980392157,0.627450980392157);
#459=COLOUR_RGB('Aluminum - Anodized Glossy (Red)',0.854901960784314,0.349019607843137,
0.349019607843137);
ENDSEC;
END-ISO-10303-21;
